ISO-10303-21;
HEADER;
FILE_DESCRIPTION (( 'STEP AP203' ),
    '1' );
FILE_NAME ('M021_9435-006.STEP',
    '2018-04-05T15:58:06',
    ( '' ),
    ( '' ),
    'SwSTEP 2.0',
    'SolidWorks 2016',
    '' );
FILE_SCHEMA (( 'CONFIG_CONTROL_DESIGN' ));
ENDSEC;

DATA;
#1 = VERTEX_POINT ( 'NONE', #267 ) ;
#2 = MANIFOLD_SOLID_BREP ( 'Base-Extrusion', #188 ) ;
#3 = PRODUCT_DEFINITION_SHAPE ( 'NONE', 'NONE',  #239 ) ;
#4 = ORIENTED_EDGE ( 'NONE', *, *, #34, .T. ) ;
#5 = APPLICATION_PROTOCOL_DEFINITION ( 'international standard', 'config_control_design', 1994, #23 ) ;
#6 =( NAMED_UNIT ( * ) SI_UNIT ( $, .STERADIAN. ) SOLID_ANGLE_UNIT ( ) );
#7 = VECTOR ( 'NONE', #209, 1000.000000000000000 ) ;
#8 = APPLICATION_PROTOCOL_DEFINITION ( 'international standard', 'config_control_design', 1994, #217 ) ;
#9 = CALENDAR_DATE ( 2018, 5, 4 ) ;
#10 = AXIS2_PLACEMENT_3D ( 'NONE', #120, #156, #112 ) ;
#11 = CARTESIAN_POINT ( 'NONE',  ( 4.000000000000005300, -1.999999999999997800, 4.000000000000000000 ) ) ;
#12 = PERSON_AND_ORGANIZATION ( #208, #143 ) ;
#13 = CC_DESIGN_PERSON_AND_ORGANIZATION_ASSIGNMENT ( #224, #49, ( #239 ) ) ;
#14 = CARTESIAN_POINT ( 'NONE',  ( -4.000000000000000000, 2.000000000000001300, 0.0000000000000000000 ) ) ;
#15 = AXIS2_PLACEMENT_3D ( 'NONE', #88, #255, #122 ) ;
#16 = EDGE_CURVE ( 'NONE', #129, #257, #207, .T. ) ;
#17 = DIRECTION ( 'NONE',  ( -0.0000000000000000000, -0.0000000000000000000, -1.000000000000000000 ) ) ;
#18 = DATE_AND_TIME ( #81, #100 ) ;
#19 = DIRECTION ( 'NONE',  ( -0.0000000000000000000, -0.0000000000000000000, -1.000000000000000000 ) ) ;
#20 = ORIENTED_EDGE ( 'NONE', *, *, #64, .F. ) ;
#21 = VECTOR ( 'NONE', #48, 1000.000000000000000 ) ;
#22 = DIRECTION ( 'NONE',  ( 1.000000000000000000, 0.0000000000000000000, 0.0000000000000000000 ) ) ;
#23 = APPLICATION_CONTEXT ( 'configuration controlled 3d designs of mechanical parts and assemblies' ) ;
#24 = CALENDAR_DATE ( 2018, 5, 4 ) ;
#25 = AXIS2_PLACEMENT_3D ( 'NONE', #53, #168, #185 ) ;
#26 = ADVANCED_FACE ( 'NONE', ( #134 ), #270, .T. ) ;
#27 = DATE_TIME_ROLE ( 'classification_date' ) ;
#28 = APPROVAL_ROLE ( '' ) ;
#29 = AXIS2_PLACEMENT_3D ( 'NONE', #136, #272, #114 ) ;
#30 = ORIENTED_EDGE ( 'NONE', *, *, #87, .F. ) ;
#31 = CALENDAR_DATE ( 2018, 5, 4 ) ;
#32 = COORDINATED_UNIVERSAL_TIME_OFFSET ( 1, 0, .AHEAD. ) ;
#33 = ADVANCED_FACE ( 'NONE', ( #72 ), #161, .T. ) ;
#34 = EDGE_CURVE ( 'NONE', #1, #133, #93, .T. ) ;
#35 = ADVANCED_FACE ( 'NONE', ( #86 ), #92, .F. ) ;
#36 = ORIENTED_EDGE ( 'NONE', *, *, #51, .F. ) ;
#37 = EDGE_LOOP ( 'NONE', ( #246, #196, #260, #130 ) ) ;
#38 = AXIS2_PLACEMENT_3D ( 'NONE', #228, #273, #211 ) ;
#39 = DIRECTION ( 'NONE',  ( -1.000000000000000000, 0.0000000000000000000, 0.0000000000000000000 ) ) ;
#40 = CARTESIAN_POINT ( 'NONE',  ( -4.000000000000000000, -1.999999999999998700, 4.000000000000000000 ) ) ;
#41 = CARTESIAN_POINT ( 'NONE',  ( -6.000000000000000000, 1.285879139104720800E-015, 0.0000000000000000000 ) ) ;
#42 = APPROVAL ( #83, 'UNSPECIFIED' ) ;
#43 = CARTESIAN_POINT ( 'NONE',  ( -4.000000000000000000, 1.285879139104720800E-015, 4.000000000000000000 ) ) ;
#44 = EDGE_CURVE ( 'NONE', #229, #115, #269, .T. ) ;
#45 = LINE ( 'NONE', #14, #223 ) ;
#46 = PERSON_AND_ORGANIZATION_ROLE ( 'design_owner' ) ;
#47 = ORIENTED_EDGE ( 'NONE', *, *, #102, .F. ) ;
#48 = DIRECTION ( 'NONE',  ( 1.000000000000000000, 1.084202172485503700E-016, 0.0000000000000000000 ) ) ;
#49 = PERSON_AND_ORGANIZATION_ROLE ( 'creator' ) ;
#50 = ORIENTED_EDGE ( 'NONE', *, *, #69, .T. ) ;
#51 = EDGE_CURVE ( 'NONE', #170, #129, #178, .T. ) ;
#52 = ORIENTED_EDGE ( 'NONE', *, *, #34, .F. ) ;
#53 = CARTESIAN_POINT ( 'NONE',  ( -4.000000000000000000, 1.285879139104720800E-015, 4.000000000000000000 ) ) ;
#54 = SECURITY_CLASSIFICATION ( '', '', #58 ) ;
#55 = PERSON_AND_ORGANIZATION_ROLE ( 'creator' ) ;
#56 = CIRCLE ( 'NONE', #90, 2.000000000000000000 ) ;
#57 = LOCAL_TIME ( 17, 58, 6.000000000000000000, #181 ) ;
#58 = SECURITY_CLASSIFICATION_LEVEL ( 'unclassified' ) ;
#59 = PERSON_AND_ORGANIZATION ( #208, #143 ) ;
#60 = CC_DESIGN_PERSON_AND_ORGANIZATION_ASSIGNMENT ( #12, #46, ( #195 ) ) ;
#61 = CYLINDRICAL_SURFACE ( 'NONE', #38, 2.000000000000000000 ) ;
#62 = DIRECTION ( 'NONE',  ( -1.000000000000000000, 0.0000000000000000000, 0.0000000000000000000 ) ) ;
#63 = VECTOR ( 'NONE', #172, 1000.000000000000000 ) ;
#64 = EDGE_CURVE ( 'NONE', #212, #257, #271, .T. ) ;
#65 = AXIS2_PLACEMENT_3D ( 'NONE', #40, #192, #174 ) ;
#66 = DIRECTION ( 'NONE',  ( -0.0000000000000000000, -0.0000000000000000000, -1.000000000000000000 ) ) ;
#67 = PERSON_AND_ORGANIZATION ( #208, #143 ) ;
#68 = APPROVAL_STATUS ( 'not_yet_approved' ) ;
#69 = EDGE_CURVE ( 'NONE', #257, #115, #240, .T. ) ;
#70 = COORDINATED_UNIVERSAL_TIME_OFFSET ( 1, 0, .AHEAD. ) ;
#71 = PERSON_AND_ORGANIZATION ( #208, #143 ) ;
#72 = FACE_OUTER_BOUND ( 'NONE', #204, .T. ) ;
#73 = APPROVAL ( #68, 'UNSPECIFIED' ) ;
#74 = APPROVAL_PERSON_ORGANIZATION ( #67, #73, #28 ) ;
#75 = APPROVAL_STATUS ( 'not_yet_approved' ) ;
#76 = DATE_AND_TIME ( #9, #234 ) ;
#77 = CARTESIAN_POINT ( 'NONE',  ( 4.000000000000005300, -1.999999999999997800, 4.000000000000000000 ) ) ;
#78 = ORIENTED_EDGE ( 'NONE', *, *, #44, .F. ) ;
#79 = CARTESIAN_POINT ( 'NONE',  ( -4.000000000000000000, 1.285879139104720800E-015, 0.0000000000000000000 ) ) ;
#80 = VECTOR ( 'NONE', #235, 1000.000000000000000 ) ;
#81 = CALENDAR_DATE ( 2018, 5, 4 ) ;
#82 = EDGE_CURVE ( 'NONE', #133, #212, #139, .T. ) ;
#83 = APPROVAL_STATUS ( 'not_yet_approved' ) ;
#84 = DIRECTION ( 'NONE',  ( 0.0000000000000000000, 0.0000000000000000000, 1.000000000000000000 ) ) ;
#85 = ORIENTED_EDGE ( 'NONE', *, *, #149, .F. ) ;
#86 = FACE_OUTER_BOUND ( 'NONE', #180, .T. ) ;
#87 = EDGE_CURVE ( 'NONE', #115, #126, #45, .T. ) ;
#88 = CARTESIAN_POINT ( 'NONE',  ( -4.000000000000000000, 2.000000000000001300, 4.000000000000000000 ) ) ;
#89 = AXIS2_PLACEMENT_3D ( 'NONE', #220, #117, #22 ) ;
#90 = AXIS2_PLACEMENT_3D ( 'NONE', #43, #173, #145 ) ;
#91 = EDGE_LOOP ( 'NONE', ( #155, #4, #96, #85 ) ) ;
#92 = PLANE ( 'NONE',  #25 ) ;
#93 = LINE ( 'NONE', #107, #7 ) ;
#94 = VERTEX_POINT ( 'NONE', #131 ) ;
#95 = CALENDAR_DATE ( 2018, 5, 4 ) ;
#96 = ORIENTED_EDGE ( 'NONE', *, *, #82, .T. ) ;
#97 = AXIS2_PLACEMENT_3D ( 'NONE', #144, #84, #191 ) ;
#98 = DIRECTION ( 'NONE',  ( -1.000000000000000000, -1.084202172485503900E-016, -0.0000000000000000000 ) ) ;
#99 = PLANE ( 'NONE',  #15 ) ;
#100 = LOCAL_TIME ( 17, 58, 6.000000000000000000, #187 ) ;
#101 = CARTESIAN_POINT ( 'NONE',  ( -4.000000000000000000, -1.999999999999998700, 0.0000000000000000000 ) ) ;
#102 = EDGE_CURVE ( 'NONE', #94, #1, #103, .T. ) ;
#103 = CIRCLE ( 'NONE', #97, 2.000000000000000000 ) ;
#104 = LOCAL_TIME ( 17, 58, 6.000000000000000000, #119 ) ;
#105 = MECHANICAL_CONTEXT ( 'NONE', #217, 'mechanical' ) ;
#106 = CARTESIAN_POINT ( 'NONE',  ( -4.000000000000000000, 2.000000000000001300, 4.000000000000000000 ) ) ;
#107 = CARTESIAN_POINT ( 'NONE',  ( -6.000000000000000000, 1.285879139104720800E-015, 4.000000000000000000 ) ) ;
#108 = SHAPE_DEFINITION_REPRESENTATION ( #3, #135 ) ;
#109 = AXIS2_PLACEMENT_3D ( 'NONE', #275, #17, #39 ) ;
#110 = CC_DESIGN_PERSON_AND_ORGANIZATION_ASSIGNMENT ( #202, #244, ( #241 ) ) ;
#111 = CARTESIAN_POINT ( 'NONE',  ( 4.000000000000005300, -1.999999999999997800, 0.0000000000000000000 ) ) ;
#112 = DIRECTION ( 'NONE',  ( -1.000000000000000000, 0.0000000000000000000, 0.0000000000000000000 ) ) ;
#113 = DESIGN_CONTEXT ( 'detailed design', #23, 'design' ) ;
#114 = DIRECTION ( 'NONE',  ( 1.000000000000000000, 0.0000000000000000000, 0.0000000000000000000 ) ) ;
#115 = VERTEX_POINT ( 'NONE', #250 ) ;
#116 = ORIENTED_EDGE ( 'NONE', *, *, #256, .F. ) ;
#117 = DIRECTION ( 'NONE',  ( 0.0000000000000000000, 0.0000000000000000000, 1.000000000000000000 ) ) ;
#118 = CIRCLE ( 'NONE', #138, 2.000000000000000000 ) ;
#119 = COORDINATED_UNIVERSAL_TIME_OFFSET ( 1, 0, .AHEAD. ) ;
#120 = CARTESIAN_POINT ( 'NONE',  ( -4.000000000000000000, 1.285879139104720800E-015, 0.0000000000000000000 ) ) ;
#121 = DIRECTION ( 'NONE',  ( -1.000000000000000000, 0.0000000000000000000, 0.0000000000000000000 ) ) ;
#122 = DIRECTION ( 'NONE',  ( 1.000000000000000000, 1.084202172485503900E-016, 0.0000000000000000000 ) ) ;
#123 =( LENGTH_UNIT ( ) NAMED_UNIT ( * ) SI_UNIT ( .MILLI., .METRE. ) );
#124 = LINE ( 'NONE', #215, #125 ) ;
#125 = VECTOR ( 'NONE', #236, 1000.000000000000000 ) ;
#126 = VERTEX_POINT ( 'NONE', #137 ) ;
#127 = ORIENTED_EDGE ( 'NONE', *, *, #102, .T. ) ;
#128 = CARTESIAN_POINT ( 'NONE',  ( 4.000000000000003600, 2.000000000000001300, 4.000000000000000000 ) ) ;
#129 = VERTEX_POINT ( 'NONE', #77 ) ;
#130 = ORIENTED_EDGE ( 'NONE', *, *, #44, .T. ) ;
#131 = CARTESIAN_POINT ( 'NONE',  ( -4.000000000000000000, 2.000000000000001300, 4.000000000000000000 ) ) ;
#132 = CC_DESIGN_DATE_AND_TIME_ASSIGNMENT ( #183, #243, ( #239 ) ) ;
#133 = VERTEX_POINT ( 'NONE', #41 ) ;
#134 = FACE_OUTER_BOUND ( 'NONE', #148, .T. ) ;
#135 = ADVANCED_BREP_SHAPE_REPRESENTATION ( 'M021_9435-006', ( #2, #200 ), #247 ) ;
#136 = CARTESIAN_POINT ( 'NONE',  ( 4.000000000000000000, 1.285879139104720800E-015, 0.0000000000000000000 ) ) ;
#137 = CARTESIAN_POINT ( 'NONE',  ( -4.000000000000000000, 2.000000000000001300, 0.0000000000000000000 ) ) ;
#138 = AXIS2_PLACEMENT_3D ( 'NONE', #79, #157, #184 ) ;
#139 = CIRCLE ( 'NONE', #166, 2.000000000000000000 ) ;
#140 = UNCERTAINTY_MEASURE_WITH_UNIT (LENGTH_MEASURE( 1.000000000000000100E-005 ), #123, 'distance_accuracy_value', 'NONE');
#141 = ORIENTED_EDGE ( 'NONE', *, *, #16, .F. ) ;
#142 = APPROVAL_PERSON_ORGANIZATION ( #59, #219, #268 ) ;
#143 = ORGANIZATION ( 'UNSPECIFIED', 'UNSPECIFIED', '' ) ;
#144 = CARTESIAN_POINT ( 'NONE',  ( -4.000000000000000000, 1.285879139104720800E-015, 4.000000000000000000 ) ) ;
#145 = DIRECTION ( 'NONE',  ( -1.000000000000000000, 0.0000000000000000000, 0.0000000000000000000 ) ) ;
#146 = ORIENTED_EDGE ( 'NONE', *, *, #51, .T. ) ;
#147 = CARTESIAN_POINT ( 'NONE',  ( 4.000000000000003600, 2.000000000000001300, 4.000000000000000000 ) ) ;
#148 = EDGE_LOOP ( 'NONE', ( #116, #30, #261, #20, #193 ) ) ;
#149 = EDGE_CURVE ( 'NONE', #170, #212, #179, .T. ) ;
#150 = ORIENTED_EDGE ( 'NONE', *, *, #251, .F. ) ;
#151 = VECTOR ( 'NONE', #66, 1000.000000000000000 ) ;
#152 = CARTESIAN_POINT ( 'NONE',  ( 4.000000000000000000, 1.285879139104720800E-015, 4.000000000000000000 ) ) ;
#153 = FACE_OUTER_BOUND ( 'NONE', #37, .T. ) ;
#154 = CC_DESIGN_APPROVAL ( #42, ( #239 ) ) ;
#155 = ORIENTED_EDGE ( 'NONE', *, *, #201, .F. ) ;
#156 = DIRECTION ( 'NONE',  ( -0.0000000000000000000, 0.0000000000000000000, -1.000000000000000000 ) ) ;
#157 = DIRECTION ( 'NONE',  ( 0.0000000000000000000, 0.0000000000000000000, 1.000000000000000000 ) ) ;
#158 = DIRECTION ( 'NONE',  ( 0.0000000000000000000, 0.0000000000000000000, 1.000000000000000000 ) ) ;
#159 = FACE_OUTER_BOUND ( 'NONE', #225, .T. ) ;
#160 = APPROVAL_PERSON_ORGANIZATION ( #218, #42, #216 ) ;
#161 = CYLINDRICAL_SURFACE ( 'NONE', #263, 2.000000000000000000 ) ;
#162 = CARTESIAN_POINT ( 'NONE',  ( -4.000000000000000000, 1.285879139104720800E-015, 0.0000000000000000000 ) ) ;
#163 = EDGE_CURVE ( 'NONE', #229, #94, #124, .T. ) ;
#164 = ORIENTED_EDGE ( 'NONE', *, *, #16, .T. ) ;
#165 = DIRECTION ( 'NONE',  ( -0.0000000000000000000, -0.0000000000000000000, -1.000000000000000000 ) ) ;
#166 = AXIS2_PLACEMENT_3D ( 'NONE', #162, #274, #121 ) ;
#167 = CC_DESIGN_PERSON_AND_ORGANIZATION_ASSIGNMENT ( #71, #265, ( #54 ) ) ;
#168 = DIRECTION ( 'NONE',  ( -0.0000000000000000000, 0.0000000000000000000, -1.000000000000000000 ) ) ;
#169 = EDGE_CURVE ( 'NONE', #94, #126, #266, .T. ) ;
#170 = VERTEX_POINT ( 'NONE', #213 ) ;
#171 = ORIENTED_EDGE ( 'NONE', *, *, #64, .T. ) ;
#172 = DIRECTION ( 'NONE',  ( 1.000000000000000000, 1.084202172485503700E-016, 0.0000000000000000000 ) ) ;
#173 = DIRECTION ( 'NONE',  ( 0.0000000000000000000, 0.0000000000000000000, 1.000000000000000000 ) ) ;
#174 = DIRECTION ( 'NONE',  ( -1.000000000000000000, -1.084202172485503700E-016, 0.0000000000000000000 ) ) ;
#175 = VECTOR ( 'NONE', #19, 1000.000000000000000 ) ;
#176 = FACE_OUTER_BOUND ( 'NONE', #91, .T. ) ;
#177 = CC_DESIGN_DATE_AND_TIME_ASSIGNMENT ( #194, #27, ( #54 ) ) ;
#178 = LINE ( 'NONE', #232, #21 ) ;
#179 = LINE ( 'NONE', #262, #175 ) ;
#180 = EDGE_LOOP ( 'NONE', ( #127, #210, #146, #264, #205 ) ) ;
#181 = COORDINATED_UNIVERSAL_TIME_OFFSET ( 1, 0, .AHEAD. ) ;
#182 = ORIENTED_EDGE ( 'NONE', *, *, #149, .T. ) ;
#183 = DATE_AND_TIME ( #24, #104 ) ;
#184 = DIRECTION ( 'NONE',  ( -1.000000000000000000, 0.0000000000000000000, 0.0000000000000000000 ) ) ;
#185 = DIRECTION ( 'NONE',  ( -1.000000000000000000, 0.0000000000000000000, 0.0000000000000000000 ) ) ;
#186 = ORIENTED_EDGE ( 'NONE', *, *, #256, .T. ) ;
#187 = COORDINATED_UNIVERSAL_TIME_OFFSET ( 1, 0, .AHEAD. ) ;
#188 = CLOSED_SHELL ( 'NONE', ( #248, #259, #253, #33, #221, #35, #26 ) ) ;
#189 = CYLINDRICAL_SURFACE ( 'NONE', #109, 2.000000000000000000 ) ;
#190 = PLANE ( 'NONE',  #65 ) ;
#191 = DIRECTION ( 'NONE',  ( -1.000000000000000000, 0.0000000000000000000, 0.0000000000000000000 ) ) ;
#192 = DIRECTION ( 'NONE',  ( -1.084202172485503700E-016, 1.000000000000000000, 0.0000000000000000000 ) ) ;
#193 = ORIENTED_EDGE ( 'NONE', *, *, #82, .F. ) ;
#194 = DATE_AND_TIME ( #95, #214 ) ;
#195 = PRODUCT ( 'M021_9435-006', 'M021_9435-006', '', ( #105 ) ) ;
#196 = ORIENTED_EDGE ( 'NONE', *, *, #169, .F. ) ;
#197 = EDGE_LOOP ( 'NONE', ( #52, #47, #276, #186 ) ) ;
#198 = CC_DESIGN_APPROVAL ( #219, ( #54 ) ) ;
#199 = PERSON_AND_ORGANIZATION ( #208, #143 ) ;
#200 = AXIS2_PLACEMENT_3D ( 'NONE', #252, #158, #237 ) ;
#201 = EDGE_CURVE ( 'NONE', #1, #170, #56, .T. ) ;
#202 = PERSON_AND_ORGANIZATION ( #208, #143 ) ;
#203 = APPROVAL_DATE_TIME ( #76, #219 ) ;
#204 = EDGE_LOOP ( 'NONE', ( #50, #78, #150, #164 ) ) ;
#205 = ORIENTED_EDGE ( 'NONE', *, *, #163, .T. ) ;
#206 = CC_DESIGN_SECURITY_CLASSIFICATION ( #54, ( #241 ) ) ;
#207 = LINE ( 'NONE', #11, #151 ) ;
#208 = PERSON ( 'UNSPECIFIED', 'UNSPECIFIED', 'UNSPECIFIED', ('UNSPECIFIED'), ('UNSPECIFIED'), ('UNSPECIFIED') ) ;
#209 = DIRECTION ( 'NONE',  ( -0.0000000000000000000, -0.0000000000000000000, -1.000000000000000000 ) ) ;
#210 = ORIENTED_EDGE ( 'NONE', *, *, #201, .T. ) ;
#211 = DIRECTION ( 'NONE',  ( -1.000000000000000000, 0.0000000000000000000, 0.0000000000000000000 ) ) ;
#212 = VERTEX_POINT ( 'NONE', #101 ) ;
#213 = CARTESIAN_POINT ( 'NONE',  ( -4.000000000000000000, -1.999999999999998700, 4.000000000000000000 ) ) ;
#214 = LOCAL_TIME ( 17, 58, 6.000000000000000000, #32 ) ;
#215 = CARTESIAN_POINT ( 'NONE',  ( -4.000000000000000000, 2.000000000000001300, 4.000000000000000000 ) ) ;
#216 = APPROVAL_ROLE ( '' ) ;
#217 = APPLICATION_CONTEXT ( 'configuration controlled 3d designs of mechanical parts and assemblies' ) ;
#218 = PERSON_AND_ORGANIZATION ( #208, #143 ) ;
#219 = APPROVAL ( #75, 'UNSPECIFIED' ) ;
#220 = CARTESIAN_POINT ( 'NONE',  ( 4.000000000000000000, 1.285879139104720800E-015, 4.000000000000000000 ) ) ;
#221 = ADVANCED_FACE ( 'NONE', ( #153 ), #99, .F. ) ;
#222 = CC_DESIGN_PERSON_AND_ORGANIZATION_ASSIGNMENT ( #199, #55, ( #241 ) ) ;
#223 = VECTOR ( 'NONE', #98, 1000.000000000000000 ) ;
#224 = PERSON_AND_ORGANIZATION ( #208, #143 ) ;
#225 = EDGE_LOOP ( 'NONE', ( #171, #141, #36, #182 ) ) ;
#226 = APPROVAL_DATE_TIME ( #242, #42 ) ;
#227 = PRODUCT_RELATED_PRODUCT_CATEGORY ( 'detail', '', ( #195 ) ) ;
#228 = CARTESIAN_POINT ( 'NONE',  ( -4.000000000000000000, 1.285879139104720800E-015, 4.000000000000000000 ) ) ;
#229 = VERTEX_POINT ( 'NONE', #147 ) ;
#230 = CARTESIAN_POINT ( 'NONE',  ( -4.000000000000000000, -1.999999999999998700, 0.0000000000000000000 ) ) ;
#231 = VECTOR ( 'NONE', #165, 1000.000000000000000 ) ;
#232 = CARTESIAN_POINT ( 'NONE',  ( -4.000000000000000000, -1.999999999999998700, 4.000000000000000000 ) ) ;
#233 = CC_DESIGN_APPROVAL ( #73, ( #241 ) ) ;
#234 = LOCAL_TIME ( 17, 58, 6.000000000000000000, #70 ) ;
#235 = DIRECTION ( 'NONE',  ( -0.0000000000000000000, -0.0000000000000000000, -1.000000000000000000 ) ) ;
#236 = DIRECTION ( 'NONE',  ( -1.000000000000000000, -1.084202172485503900E-016, -0.0000000000000000000 ) ) ;
#237 = DIRECTION ( 'NONE',  ( 1.000000000000000000, 0.0000000000000000000, 0.0000000000000000000 ) ) ;
#238 = DIRECTION ( 'NONE',  ( -0.0000000000000000000, -0.0000000000000000000, -1.000000000000000000 ) ) ;
#239 = PRODUCT_DEFINITION ( 'UNKNOWN', '', #241, #113 ) ;
#240 = CIRCLE ( 'NONE', #29, 2.000000000000000000 ) ;
#241 = PRODUCT_DEFINITION_FORMATION_WITH_SPECIFIED_SOURCE ( 'ANY', '', #195, .NOT_KNOWN. ) ;
#242 = DATE_AND_TIME ( #31, #57 ) ;
#243 = DATE_TIME_ROLE ( 'creation_date' ) ;
#244 = PERSON_AND_ORGANIZATION_ROLE ( 'design_supplier' ) ;
#245 = APPROVAL_DATE_TIME ( #18, #73 ) ;
#246 = ORIENTED_EDGE ( 'NONE', *, *, #87, .T. ) ;
#247 =( GEOMETRIC_REPRESENTATION_CONTEXT ( 3 ) GLOBAL_UNCERTAINTY_ASSIGNED_CONTEXT ( ( #140 ) ) GLOBAL_UNIT_ASSIGNED_CONTEXT ( ( #123, #249, #6 ) ) REPRESENTATION_CONTEXT ( 'NONE', 'WORKASPACE' ) );
#248 = ADVANCED_FACE ( 'NONE', ( #176 ), #189, .T. ) ;
#249 =( NAMED_UNIT ( * ) PLANE_ANGLE_UNIT ( ) SI_UNIT ( $, .RADIAN. ) );
#250 = CARTESIAN_POINT ( 'NONE',  ( 4.000000000000003600, 2.000000000000001300, 0.0000000000000000000 ) ) ;
#251 = EDGE_CURVE ( 'NONE', #129, #229, #254, .T. ) ;
#252 = CARTESIAN_POINT ( 'NONE',  ( 0.0000000000000000000, 0.0000000000000000000, 0.0000000000000000000 ) ) ;
#253 = ADVANCED_FACE ( 'NONE', ( #159 ), #190, .F. ) ;
#254 = CIRCLE ( 'NONE', #89, 2.000000000000000000 ) ;
#255 = DIRECTION ( 'NONE',  ( 1.084202172485503900E-016, -1.000000000000000000, 0.0000000000000000000 ) ) ;
#256 = EDGE_CURVE ( 'NONE', #126, #133, #118, .T. ) ;
#257 = VERTEX_POINT ( 'NONE', #111 ) ;
#258 = FACE_OUTER_BOUND ( 'NONE', #197, .T. ) ;
#259 = ADVANCED_FACE ( 'NONE', ( #258 ), #61, .T. ) ;
#260 = ORIENTED_EDGE ( 'NONE', *, *, #163, .F. ) ;
#261 = ORIENTED_EDGE ( 'NONE', *, *, #69, .F. ) ;
#262 = CARTESIAN_POINT ( 'NONE',  ( -4.000000000000000000, -1.999999999999998700, 4.000000000000000000 ) ) ;
#263 = AXIS2_PLACEMENT_3D ( 'NONE', #152, #238, #62 ) ;
#264 = ORIENTED_EDGE ( 'NONE', *, *, #251, .T. ) ;
#265 = PERSON_AND_ORGANIZATION_ROLE ( 'classification_officer' ) ;
#266 = LINE ( 'NONE', #106, #80 ) ;
#267 = CARTESIAN_POINT ( 'NONE',  ( -6.000000000000000000, 1.285879139104720800E-015, 4.000000000000000000 ) ) ;
#268 = APPROVAL_ROLE ( '' ) ;
#269 = LINE ( 'NONE', #128, #231 ) ;
#270 = PLANE ( 'NONE',  #10 ) ;
#271 = LINE ( 'NONE', #230, #63 ) ;
#272 = DIRECTION ( 'NONE',  ( 0.0000000000000000000, 0.0000000000000000000, 1.000000000000000000 ) ) ;
#273 = DIRECTION ( 'NONE',  ( -0.0000000000000000000, -0.0000000000000000000, -1.000000000000000000 ) ) ;
#274 = DIRECTION ( 'NONE',  ( 0.0000000000000000000, 0.0000000000000000000, 1.000000000000000000 ) ) ;
#275 = CARTESIAN_POINT ( 'NONE',  ( -4.000000000000000000, 1.285879139104720800E-015, 4.000000000000000000 ) ) ;
#276 = ORIENTED_EDGE ( 'NONE', *, *, #169, .T. ) ;
ENDSEC;
END-ISO-10303-21;
